mercredi 2 juin 2021




ABONNEMENT VIP ORDRE PERSONNALISE

AVEC RICHESSE-GAGNANT, LA CONFIANCE A L'HORIZON CHAQUE JOUR














28/09/2021 TECRAIL & FORNELLS INNOVATIONS (PRIX DE BEAUNE)
13:50 - Réunion 1 Course 1 - COMPIEGNE
HAIES - 3800m - 95000.00€


COUP SUR DES EXPERTS

05

Couple place
00 - 00// 00 - 00
Tierce : 00-00-00-00
Quarte00-00-00-00-00
Quinte00-00-00-00-00-00

Resultat:  

--------------------------------------------------------------------------------

27/09/2021 PRIX DE LA MAIRIE DE MAUQUENCHY
13:50 - Réunion 1 Course 1 - MAUQUENCHY
TROT ATTELE - 2150m - 40000.00€


COUP SUR DES EXPERTS

02

Couple place
02 - 12// 04 - 11
Tierce : 02-12-04-11
Quarte12-04-11-02-09
Quinte12-04-11-02-09-15

Resultat:  12-4-11-2-15

--------------------------------------------------------------------------------

26/09/2021 PRIX D'ANCENIS
15:15 - Réunion 1 Course 4 - PARIS-VINCENNES
TROT ATTELE - 2850m - 60000.00€ - Corde à gauche


COUP SUR DES EXPERTS

08

Couple place
08 - 06// 02 - 13
Tierce : 08-06-02-13
Quarte08-13-06-02-15
Quinte08-13-06-02-15-10

Resultat:  8-13-2-15-10

-------------------------------------------------------------8------------------------------------


25/09/2021 PRIX VIOLON II
15:15 - Réunion 1 Course 3 - AUTEUIL
STEEPLE CHASE - 4400m - 95000.00€

COUP SUR DES EXPERTS

05

Couple place
05 - 09// 07 - 08
Tierce : 05-09-07-08
Quarte09-05-07-08-03
Quinte09-07-03-08-05-12

Resultat: 9-7-8-5-12

-------------------------------------------------------------8------------------------------------

24/09/2021 PRIX CLEOMEDE
20:15 - Réunion 1 Course 3 - PARIS-VINCENNES
TROT ATTELE - 2850m - 60000.00€ - Corde à gauche

COUP SUR DES EXPERTS

14

Couple place
12 - 11// 14 - 13
Tierce : 12-11-14-13
Quarte12-11-14-13-02
Quinte12-11-14-13-02-05

Resultat: 12-11-14-13-5=

-------------------------------------------------------------8------------------------------------


23/09/2021 PRIX BERNARD LE QUELLEC
13:50 - Réunion 1 Course 1 - PARIS-VINCENNES
TROT ATTELE - 2700m - 60000.00€ - Corde à gauche

COUP SUR DES EXPERTS

12

Couple place
12 - 06// 07 - 05
Tierce : 12-06-07-05
Quarte06-12-07-05-01
Quinte06-12-07-01-05-11

Resultat: 6-12-7-5-11

-------------------------------------------------------------8------------------------------------

22/09/2021 PRIX FRANCE BLEU PICARDIE
13:50 - Réunion 1 Course 4 - AMIENS
TROT ATTELE - 2400m - 40000.00€

COUP SUR DES EXPERTS

04

Couple place
04 - 02// 07 - 10
Tierce : 04-02-07-10
Quarte02-07-04-10-13
Quinte02-07-10-04-13-03

Resultat: 2-7-10-13-3

-------------------------------------------------------------8------------------------------------

21/09/2021 PRIX CALABRAIS
13:50 - Réunion 1 Course 1 - AUTEUIL
HAIES - 3600m - 95000.00€

COUP SUR DES EXPERTS

01

Couple place
01 - 14// 04 - 08
Tierce : 01-14-04-08
Quarte: 14-01-04-08-05
Quinte14-04-01-08-05-10

Resultat: 14-4-8-5-10

-------------------------------------------------------------8------------------------------------

20/09/2021 PRIX ROLAND FOUGEDOIRE
13:50 - Réunion 1 Course 1 - FONTAINEBLEAU
PLAT - 1200m - 50000.00€

COUP SUR DES EXPERTS

06

Couple place
06 - 08// 05 - 01
Tierce : 06-08-05-01
Quarte08-05-06-01-04
Quinte08-01-05-06-04-03

Resultat: 5-1-8-3-4

-------------------------------------------------------------8------------------------------------

19/09/2021 PRIX D'AVALLON
15:15 - Réunion 1 Course 4 - PARIS-VINCENNES
TROT ATTELE - 2100m - 60000.00€

COUP SUR DES EXPERTS

11

Couple place
11 - 04// 02 - 01
Tierce : 11-04-02-01
Quarte04-02-01-11-08
Quinte04-02-08-01-11-10

Resultat:4-2-1-11-10

-------------------------------------------------------------8------------------------------------

18/09/2021 PRIX DES BOUCLES DE LA SEINE
15:15 - Réunion 1 Course 3 - SAINT CLOUD
PLAT - 1600m - 50000.00€ - Corde à gauche

COUP SUR DES EXPERTS

01

Couple place
01 - 07// 14 - 03
Tierce : 01-07-14-03
Quarte07-14-01-03-10
Quinte07-01-14-03-10-02

Resultat:7-14-3-10-2

-------------------------------------------------------------8------------------------------------

17/09/2021 PRIX OPHELIA
20:15 - Réunion 1 Course 3 - PARIS-VINCENNES
TROT ATTELE - 2850m - 60000.00€ - Corde à gauche

COUP SUR DES EXPERTS

12

Couple place
12 - 10// 04 - 13
Tierce : 12-10-04-13
Quarte10-04-12-13-16
Quinte10-04-12-13-16-02

Resultat:10-4-13-16-2

-------------------------------------------------------------8------------------------------------

16/09/2021 PRIX DE SAINTE-OPPORTUNE
18:20 - Réunion 1 Course 5 - LONGCHAMP
PLAT - 2400m - 50000.00€ - Corde à droite

COUP SUR DES EXPERTS

05

Couple place
05 - 04// 14 - 15
Tierce : 05-04-14-15
Quarte04-05-14-15-08
Quinte14-05-15-04-13-08

Resultat:14-15-4-8-13

-------------------------------------------------------------8------------------------------------

15/09/2021 PRIX #RACEANDCARE (PRIX DE LA PLAINE DU PUTOIS)
13:50 - Réunion 1 Course 1 - COMPIEGNE
PLAT - 1400m - 55000.00€ - Corde à gauche

COUP SUR DES EXPERTS

02

Couple place
02 - 05// 13 - 12
Tierce : 02-05-13-12
Quarte05-02-13-12-07
Quinte05-13-02-12-07-08

Resultat:5-13-12-7-8

-------------------------------------------------------------8------------------------------------

14/09/2021 PRIX PEUT-ETRE
13:50 - Réunion 1 Course 1 - SAINT CLOUD
PLAT - 2000m - 50000.00€ - Corde à gauche

COUP SUR DES EXPERTS

02

Couple place
02 - 09// 03 - 14
Tierce : 02-09-03-14
Quarte09-02-03-14-01
Quinte09-02-03-14-01-13

Resultat: 9-3-14-1-13

-------------------------------------------------------------8------------------------------------

13/09/2021 GRAND PRIX DYNAVENA MAISAGRI
13:50 - Réunion 1 Course 4 - BEAUMONT DE LOMAGNE
TROT ATTELE - 2550m - 40000.00€ - Corde à droite


COUP SUR DES EXPERTS

05

Couple place
05 - 02// 10 - 09
Tierce : 05-02-10-09
Quarte05-02-10-09-07
Quinte05-02-10-07-09-14

Resultat: 5-2-10-7-14

-------------------------------------------------------------------------------------------------

12/09/2021 QATAR HANDICAP DES ARC TRIALS
15:15 - Réunion 1 Course 4 - LONGCHAMP
PLAT - 1400m - 50000.00€ - Corde à droite


COUP SUR DES EXPERTS

06

Couple place
06 - 16// 10 - 05
Tierce : 06-16-10-05
Quarte16-10-05-13-06
Quinte16-10-13-10-05-06

Resultat: 16-10-5-6-12

-------------------------------------------------------------------------------------------------

11/09/2021 PRIX D'EAUBONNE
15:15 - Réunion 1 Course 3 - PARIS-VINCENNES
TROT ATTELE - 2100m - 60000.00€

COUP SUR DES EXPERTS

09

Couple place
11 - 13// 09 - 12
Tierce : 11-13-09-12
Quarte11-13-09-12-01
Quinte11-13-09-12-01-07

Resultat: 11-13-9-12-7

-------------------------------------------------------------------------------------------------

10/09/2021 PRIX BAPTISTINA
20:15 - Réunion 1 Course 3 - PARIS-VINCENNES
TROT ATTELE - 2100m - 40000.00€

COUP SUR DES EXPERTS

04

Couple place
06 - 10// 04 - 08
Tierce : 06-10-04-08
Quarte06-10-04-08-05
Quinte06-10-04-08-05-02

Resultat: 6-10-4-8-2

-------------------------------------------------------------------------------------------------

09/09/2021 PRIX DE LONGCHAMP
18:20 - Réunion 1 Course 5 - LONGCHAMP
PLAT - 2200m - 55000.00€ - Corde à droite

COUP SUR DES EXPERTS

09

Couple place
09 - 05// 08 - 07
Tierce : 09-05-08-07
Quarte09-05-08-07-16
Quinte09-05-08-07-16-15

Resultat: 9-5-8-7-15

-------------------------------------------------------------------------------------------------

08/09/2021 GRAND NATIONAL DU TROT "PARIS-TURF"
13:50 - Réunion 1 Course 1 - PORNICHET
TROT ATTELE - 2725m - 85000.00€ - Corde à gauche


COUP SUR DES EXPERTS

07

Couple place
07 - 03// 02 - 15
Tierce : 07-03-02-15
Quarte03-07-02-15-13
Quinte03-02-07-15-13-11

Resultat: 3-2-15-13-11

-------------------------------------------------------------------------------------------------

07/09/2021 PRIX ALAIN ET GILLES DE GOULAINE
13:50 - Réunion 1 Course 4 - AUTEUIL
HAIES - 3600m - 95000.00


COUP SUR DES EXPERTS

01

Couple place
01 - 16// 08 - 04
Tierce : 01-16-08-04
Quarte01-16-08-14-04
Quinte16-01-07-08-14-04

Resultat: 8-4-16-14-7

-------------------------------------------------------------------------------------------------

06/09/2021PRIX V AND B - FINALE DU TROPHEE VERT
13:50 - Réunion 1 Course 5 - CRAON
TROT ATTELE - 2775m - 70000.00€ - Corde à droite


COUP SUR DES EXPERTS

15

Couple place
15 - 16// 13 - 10
Tierce : 15-16-13-10
Quarte15-16-13-10-05
Quinte15-16-13-05-10-03

Resultat: 15-16-13-5-3

-------------------------------------------------------------------------------------------------

05/09/2021 PRIX DES GRANDES CARRIERES
15:15 - Réunion 1 Course 4 - LONGCHAMP
PLAT - 1850m - 50000.00€ - Corde à droite

COUP SUR DES EXPERTS

03

Couple place
06 - 01// 04 - 03
Tierce : 06-01-04-03
Quarte06-01-04-03-12
Quinte06-01-04-03-12-09

Resultat: 61-3-12-9

-------------------------------------------------------------------------------------------------

04/09/2021 SULKY 5 ANS FINALE - CRITERIUM DES 5 ANS
15:15 - Réunion 1 Course 3 - PARIS-VINCENNES
TROT ATTELE - 3000m - 200000.00€ - Corde à gauche

COUP SUR DES EXPERTS

11

Couple place
11 - 04// 10 - 12
Tierce : 11-04-10-12
Quarte: 11-04-10-12-16
Quinte11-04-10-12-11-09

Resultat: 4-10-12-11-9

-------------------------------------------------------------------------------------------------

03/09/2021 PRIX DIOTIMA
20:15 - Réunion 1 Course 3 - PARIS-VINCENNES
TROT ATTELE - 2100m - 60000.00€

COUP SUR DES EXPERTS

01

Couple place
01 - 16// 12 - 07
Tierce : 01-16-12-07
Quarte01-16-12-07-03
Quinte01-12-16-03-06-07

Resultat: 7-12-16-1-6

-------------------------------------------------------------------------------------------------


02/09/2021 PRIX DE LA REINE MARGUERITE
18:20 - Réunion 1 Course 5 - LONGCHAMP
PLAT - 2250m - 50000.00€ - Corde à droite

COUP SUR DES EXPERTS

06

Couple place
06 - 02// 14 - 15
Tierce : 06-02-14-15
Quarte02-06-14-15-11
Quinte02-14-15-06-11-03

Resultat: 2-14-15-11-3

-------------------------------------------------------------------------------------------------

1er/09/2021 PRIX JEAN BART
13:50 - Réunion 1 Course 2 - AUTEUIL
HAIES - 3600m - 95000.00€

COUP SUR DES EXPERTS

09

Couple place
13 - 09// 06 - 01
Tierce : 13-09-06-01
Quarte13-09-01-06-07
Quinte13-09-06-01-07-10

Resultat: 13-9-1-7-10

------------------------------------------------------------------------------------------------- 

31/08/2021 PRIX REGION NORMANDIE
13:50 - Réunion 1 Course 1 - DIEPPE
PLAT - 1100m - 50000.00€

COUP SUR DES EXPERTS

04

Couple place
04 - 12// 13 - 06
Tierce : 04-12-13-06
Quarte04-12-13-06-11
Quinte04-12-13-11-06-05

Resultat: 4-12-13-11-5

------------------------------------------------------------------------------------------------- 

30/08/2021 PRIX DE MORTAIN
13:50 - Réunion 1 Course 1 - PARIS-VINCENNES
TROT ATTELE - 2850m - 60000.00€ - Corde à gauche

COUP SUR DES EXPERTS

12

Couple place
10 - 13// 13 - 01
Tierce : 10-13-12-01
Quarte10-13-01-12-11
Quinte10-13-12-11-01-07

Resultat: 10-13-12-11-7

------------------------------------------------------------------------------------------------- 

29/08/2021 PRIX CASINO BARRIERE DEAUVILLE
15:15 - Réunion 1 Course 4 - DEAUVILLE
PLAT - 1500m - 50000.00€ - Corde à droite

COUP SUR DES EXPERTS

05

Couple place
05 - 11// 07 - 16
Tierce : 05-11-07-16
Quarte11-05-07-16-09
Quinte11-05-07-09-16-03

Resultat: 11-16-7-9-3

------------------------------------------------------------------------------------------------- 

28/08/2021 PRIX DE LA RECONVERSION DES CHEVAUX DE COURSES (PRIX DES CHENETTES)
15:15 - Réunion 1 Course 3 - DEAUVILLE
PLAT - 1900m - 55000.00€ - Corde à droite

COUP SUR DES EXPERTS

10

Couple place
10 - 11// 05 - 02
Tierce : 10-11-05-02
Quarte: 11-05-10-02-08
Quinte11-05-10-02-08-13

Resultat: 11-5-10-8-13

------------------------------------------------------------------------------------------------- 

27/08/2021 PRIX D'ARGENTAN
20:15 - Réunion 1 Course 3 - CABOURG
TROT ATTELE - 2725m - 40000.00€

COUP SUR DES EXPERTS

11

Couple place
11 - 08// 07 - 09
Tierce : 11-08-07-09
Quarte08-07-09-11-03
Quinte08-07-09-03-11-12

Resultat: 8-7-9-11-12

------------------------------------------------------------------------------------------------- 

26/08/2021 HANDICAP DE LA MANCHE
20:15 - Réunion 1 Course 8 - DEAUVILLE
PLAT - 3200m - 55000.00€ - Corde à droite

COUP SUR DES EXPERTS

03

Couple place
03 - 01// 10 - 05
Tierce : 03-01-10-05
Quarte03-01-10-05-06-08
Quinte01-10-03-05-06-08

Resultat: 1-10-5-6-8

------------------------------------------------------------------------------------------------- 

25/08/2021 PRIX DE BEAUNE
20:16 - Réunion 1 Course 4 - PARIS-VINCENNES
TROT ATTELE - 2700m - 60000.00€ - Corde à gauche

COUP SUR DES EXPERTS

10

Couple place
10 - 11// 06 - 08
Tierce : 10-11-06-08
Quarte: 10-11-06-08-04
Quinte10-11-06-08-04-01

Resultat: 10-11-8-4-1

------------------------------------------------------------------------------------------------- 


24/08/2021 PRIX DES GRENIERS A SEL
13:50 - Réunion 1 Course 1 - DEAUVILLE
PLAT - 2000m - 50000.00€ - Corde à droite

COUP SUR DES EXPERTS

03

Couple place
03 - 04// 06 - 05
Tierce : 03-04-06-05
Quarte04-06-05-03-08
Quinte04-06-05-08-07-03

Resultat: 4-6-5-8-3

------------------------------------------------------------------------------------------------- 


23/08/2021 47EME FESTIVAL DU CINEMA AMERICAIN DE DEAUVILLE (GRAND STEEPLE-CHASE DE LA VILLE DE DEAUVILLE)
13:50 - Réunion 1 Course 2 - CLAIREFONTAINE
STEEPLE CHASE - 4500m - 95000.00€

COUP SUR DES EXPERTS

05

Couple place

05 - 02// 07 - 09

Tierce : 05-02-07-09

Quarte02-05-07-09-15

Quinte02-07-05-09-06-15

Resultat: 2-7-15-9-6 

-------------------------------------------------------------------------------------------------

22/08/2021 DARLEY PRIX DE PONT-L'EVEQUE
15:15 - Réunion 1 Course 3 - DEAUVILLE
PLAT - 1900m - 50000.00€ - Corde à droite

COUP SUR DES EXPERTS

03

Couple place

03 - 02// 15 - 04

Tierce : 03-02-15-04

Quarte02-03-15-04-06

Quinte02-03-04-15-06-01

Resultat: 2-3-15-6-1 

-------------------------------------------------------------------------------------------------


21/08/2021 PRIX DE BALLEROY
15:15 - Réunion 1 Course 3 - DEAUVILLE
PLAT - 1400m - 55000.00€

COUP SUR DES EXPERTS

01

Couple place

01 - 04// 05 - 10

Tierce : 01-04-05-10

Quarte01-04-05-10-08

Quinte01-04-10-05-08-09

Resultat:  1-4-10-8-9

-------------------------------------------------------------------------------------------------

20/08/2021 PRIX DE VILLEDIEU-LES-POELES
20:15 - Réunion 1 Course 3 - CABOURG
TROT ATTELE - 2750m - 40000.00€ - Corde à droite

COUP SUR DES EXPERTS

03

Couple place

09 - 12// 03 - 11

Tierce : 09-12-03-11

Quarte09-12-03-01-11

Quinte09-12-03-01-11-13

Resultat:  9-12-3-1-13

-------------------------------------------------------------------------------------------------

19/08/2021 PRIX APOLLINE MATIN - PRIX DE BARNEVILLE
20:15 - Réunion 1 Course 7 - DEAUVILLE
PLAT - 2500m - 50000.00€ - Corde à droite

COUP SUR DES EXPERTS

16

Couple place

16 - 05//13 - 03

Tierce : 16-05-13-03

Quarte16-05-13-03-10

Quinte16-05-03-13-10-12

Resultat:  5-13-3-10-12

-------------------------------------------------------------------------------------------------

18/08/2021 PRIX DE LA VILLE D'ENGHIEN-LES-BAINS
20:15 - Réunion 1 Course 4 - ENGHIEN
TROT ATTELE - 2875m - 40000.00€ - Corde à gauche

COUP SUR DES EXPERTS

13

Couple place

13 - 08// 11 - 06

Tierce : 13-08-11-06

Quarte11-08-06-13-05

Quinte11-08-13-06-05-02

Resultat:  11-8-13-5-2

-------------------------------------------------------------------------------------------------

17/08/2021 PRIX LA CABANE PERCHEE (PRIX FRANCOIS ANDRE)
13:50 - Réunion 1 Course 1 - DEAUVILLE
PLAT - 1400m - 55000.00€

COUP SUR DES EXPERTS

02

Couple place

02 - 07// 01 - 15

Tierce : 02-07-01-15

Quarte07-01-02-15-14
Quinte07-14-01-02-15-14

Resultat:  15-7-1-14-8

-------------------------------------------------------------------------------------------------

16/08/2021 PRIX "PLAY BONHEUR" (PRIX ROBERTET)
13:50 - Réunion 1 Course 1 - CLAIREFONTAINE
PLAT - 1800m - 50000.00€ - Corde à droite

COUP SUR DES EXPERTS

01

Couple place

01 - 07// 13 - 11

Tierce : 01-07-13-11

Quarte01-07-13-11-14
Quinte07-11-01-14-13-08

Resultat:  7-13-11-14-8

-------------------------------------------------------------------------------------------------

15/08/2021 GRAND HANDICAP DES SPRINTERS

15:15 - Réunion 1 Course 3 - DEAUVILLE
PLAT - 1200m - 70000.00€

COUP SUR DES EXPERTS

07

Couple place

07 - 09// 04 - 01

Tierce : 07-09-04-01
Quarte07-09-01-04-02
Quinte07-09-04-01-06-02

Resultat:  7-9-4-2-6

-------------------------------------------------------------------------------------------------

14/08/2021 PRIX HONG KONG JOCKEY CLUB - PRIX DU VIEUX BASSIN
15:15 - Réunion 1 Course 3 - DEAUVILLE
PLAT - 2500m - 55000.00€ - Corde à droite

COUP SUR DES EXPERTS

01

Couple place

01 - 06// 12 - 13

Tierce : 01-06-12-13
Quarte01-06-12-13-10
Quinte06-01-12-10-13-11

Resultat:6-1-12-10-11
-------------------------------------------------------------------------------------------------

13/08/2021 PRIX BRUNO COQUATRIX
20:15 - Réunion 1 Course 3 - CABOURG 
TROT ATTELE - 2750m - 40000.00€ - Corde à droite 

COUP SUR DES EXPERTS

05

Couple place

05 - 01// 08 - 09

Tierce : 05-01-08-09
Quarte01-08-09-05-03
Quinte01-08-05-09-07-03

Resultat:  1-8-9-3-5

-------------------------------------------------------------------------------------------------

12/08/2021 PRIX DE LA HAUTE-SAONE
20:15 - Réunion 1 Course 4 - ENGHIEN
TROT ATTELE - 2150m - 60000.00€

COUP SUR DES EXPERTS

07

Couple place

07 - 08// 14 - 04

Tierce : 07-08-14-04
Quarte08-07-14-04-11
Quinte08-14-07-04-11-09

Resultat:  14-8-4-11-9

-------------------------------------------------------------------------------------------------

11/08/2021 GRAND NATIONAL DU TROT "PARIS-TURF"
20:15 - Réunion 1 Course 7 - SAINT MALO
TROT ATTELE - 2950m - 85000.00€ - Corde à droite

COUP SUR DES EXPERTS

12

Couple place

12 - 15// 01 - 02

Tierce : 12-15-01-02
Quarte: 15-01-02-04-12
Quinte01-02-15-12-04-05

Resultat:  15-1-2-4-5

-------------------------------------------------------------------------------------------------

10/08/2021 PRIX DU SECOURS POPULAIRE
13:50 - Réunion 1 Course 1 - DEAUVILLE
PLAT - 1600m - 50000.00€

COUP SUR DES EXPERTS

05

Couple place

05 - 04// 06 - 09
Tierce : 05-04-06-09
Quarte04-06-05-09-13 
Quinte04-06-09-05-08-13

Resultat:  4-9-6-13-8

-------------------------------------------------------------------------------------------------

09/08/2021 PRIX JOURNAL LE VEINARD (PRIX DE LA COTE DE NACRE)
13:50 - Réunion 1 Course 1 - CLAIREFONTAINE
PLAT - 2200m - 50000.00€ - Corde à droite

COUP SUR DES EXPERTS

01

Couple place

01 - 07// 13 - 16
Tierce : 01-07-13-16
Quarte07-13-01-16-04
Quinte07-04-01-13-05-16

Resultat:  7-16-13-4-16

-------------------------------------------------------------------------------------------------

08/08/2021 PRIX VALPARAISO SPORTING CLUB - GRAND HANDICAP DE DEAUVILLE
15:15 - Réunion 1 Course 4 - DEAUVILLE
PLAT - 1600m - 100000.00€

COUP SUR DES EXPERTS

15

Couple place

15 - 05// 14 - 08
Tierce : 15-05-14-08
Quarte05-15-14-08-02
Quinte05-14-08-15-02-07

Resultat:  5-14-8-2-7

-------------------------------------------------------------------------------------------------

07/08/2021 GRAND HANDICAP DES COLLECTIVITES LOCALES
15:15 - Réunion 1 Course 3 - DEAUVILLE
PLAT - 1900m - 70000.00€ - Corde à droite

COUP SUR DES EXPERTS

06


Couple place
06 - 04// 10 - 03
Tierce : 06-04-10-03
Quarte06-10-04-03-14
Quinte10-06-14-04-03-11

Resultat:  10-3-6-14-11

-------------------------------------------------------------------------------------------------

06/08/2021 PRIX DES LYCOPODES
20:15 - Réunion 1 Course 3 - CABOURG
TROT ATTELE - 2750m - 40000.00€ - Corde à droite

COUP SUR DES EXPERTS


15

Couple place
15 - 08// 04 - 14
Tierce : 15-08-04-14
Quarte08-04-15-14-03
Quinte08-15-07-04-14-03

Resultat:  8-4-14-3-7

-------------------------------------------------------------------------------------------------

05/08/2021 PRIX DE LA FEDERATION DES ELEVEURS DU GALOP - PRIX DU CHAMP DURA
20:15 - Réunion 1 Course 7 - DEAUVILLE
PLAT - 1200m - 55000.00€

COUP SUR DES EXPERTS


01

Couple place
01 - 06// 04 - 15
Tierce : 01-06-04-15
Quarte06-01-04-15-11
Quinte06-11-01-04-15-05

Resultat:  6-4-15-5-11

-------------------------------------------------------------------------------------------------

04/08/2021 PRIX DU PARC DES PRINCES
20:15 - Réunion 1 Course 4 - ENGHIEN
TROT ATTELE - 2150m - 67000.00€

COUP SUR DES EXPERTS


11

Couple place
11 - 08// 06 - 12
Tierce : 11-08-06-12
Quarte08-11-06-12-07
Quinte11-08-06-12-07-01

Resultat:  6-12-8-11-1

-------------------------------------------------------------------------------------------------

03/08/2021 PRIX DE LA VILLA LUCIE
13:50 - Réunion 1 Course 2 - DEAUVILLE
PLAT - 1300m - 50000.00€ - Corde à droite

COUP SUR DES EXPERTS

07

Couple place
07 - 05// 10 - 11
Tierce : 07-05-10-11
Quarte05-10-07-11-14
Quinte05-10-07-11-15-14

Resultat:  5-10-7-14-15

-------------------------------------------------------------------------------------------------

02/08/2021 PRIX DJSL BOIS (PRIX DE LA ROUTE DES VACHES)
13:50 - Réunion 1 Course 1 - DIEPPE
PLAT - 1800m - 55000.00€ - Corde à droite

COUP SUR DES EXPERTS

01

Couple place
13 - 01// 03 - 05
Tierce : 13-01-03-05
Quarte:13-01-03-05-10
Quinte13-01-03-10-05-08

Resultat:  13-1-3-10-8

-------------------------------------------------------------------------------------------------

1er/08/2021 PRIX AUBERGE DE LA SOURCE (PRIX DE LA COTE FLEURIE)
15:15 - Réunion 1 Course 3 - CLAIREFONTAINE
PLAT - 2400m - 50000.00€ - Corde à droite

COUP SUR DES EXPERTS

08

Couple place
08 - 05// 06 - 10
Tierce : 08-05-06-10
Quarte08-06-05-10-09
Quinte08-05-06-10-09-01

Resultat:  8-6-10-9-1

-------------------------------------------------------------------------------------------------

31/07/2021 PRIX DOMINIQUE SAVARY
15:15 - Réunion 1 Course 3 - ENGHIEN
TROT ATTELE - 2150m - 60000.00€


COUP SUR DES EXPERTS

02

Couple place
02 - 01// 10 - 08
Tierce : 02-01-10-08
Quarte02-01-10-08-03
Quinte02-01-10-08-03-05

Resultat:  2-1-10-3-5

-------------------------------------------------------------------------------------------------

30/07/2021 PRIX HENRI BALLIERE
20:15 - Réunion 1 Course 4 - CABOURG
TROT ATTELE - 2750m - 40000.00€ - Corde à droite


COUP SUR DES EXPERTS

15

Couple place
15 - 07// 06 - 16
Tierce : 15-07-06-16
Quarte07-15-06-16-09
Quinte07-06-16-15-09-04

Resultat:  7-6-16-9-4

-------------------------------------------------------------------------------------------------

29/072021 GRANDE COURSE DE HAIES - PRIX GUILLAUME D'ORNANO
20:15 - Réunion 1 Course 8 - CLAIREFONTAINE
HAIES - 3600m - 100000.00€

COUP SUR DES EXPERTS

04

Couple place
04 - 11// 10 - 13
Tierce : 04-11-10-13
Quarte11-13-04-10-03
Quinte11-05-03-10-04-13

Resultat:  10-13-11-3-5

-------------------------------------------------------------------------------------------------

28/07/2021 PRIX DU MEDOC
20:15 - Réunion 1 Course 5 - ENGHIEN
TROT ATTELE - 2875m - 60000.00€ - Corde à gauche

COUP SUR DES EXPERTS

14

Couple place14 - 03// 13 - 01
Tierce : 14-03-13-01
Quarte14-03-13-01-04
Quinte14-03-13-01-04-06

Resultat:  14-3-13-1-6

-------------------------------------------------------------------------------------------------

           27/07/2021 PRIX DES HAUTS-DE-FRANCE

13:50 - Réunion 1 Course 1 - COMPIEGNE
PLAT - 1800m - 50000.00€ - Corde à gauche

COUP SUR DES EXPERTS

11

Couple place
07 - 11// 16 - 03
Tierce : 07-11-16-03
Quarte07-16-03-02-11
Quinte07-16-02-03-11-01

Resultat:  7-16-3-11-1

-------------------------------------------------------------------------------------------------

26/07/2021 PRIX TOYOTA TOYS MOTORS (PRIX DE SUSSEX)
13:50 - Réunion 1 Course 1 - DIEPPE
PLAT - 2400m - 50000.00€ - Corde à droite

COUP SUR DES EXPERTS

10

Couple place
10 - 08// 03 - 07
Tierce : 08-03-10-07
Quarte08-03-07-10-01
Quinte08-03-07-10-01-16

16Resultat:  8-3-7-1-16

-------------------------------------------------------------------------------------------------

     25/07/2021 PRIX LE JOURNAL "LE VEINARD"

15:15 - Réunion 1 Course 3 - LA TESTE DE BUCH
PLAT - 2000m - 50000.00€ - Corde à droite

COUP SUR DES EXPERTS

06

Couple place
06 - 03// 11 - 12
Tierce : 06-03-11-12
Quarte03-06-11-12-05
Quinte03-11-12-06-05-01

Resultat:  3-11-12-5-1

-------------------------------------------------------------------------------------------------

24/07/2021 PRIX DE L'ESPLANADE
15:15 - Réunion 1 Course 3 - ENGHIEN
TROT ATTELE - 2875m - 40000.00€ - Corde à gauche


COUP SUR DES EXPERTS

13

Couple place
13 - 03// 11 - 05
Tierce : 13-03-11-05
Quarte13-03-11-05-04
Quinte03-11-05-13-04-10

Resultat:  3-11-13-4-10

-------------------------------------------------------------------------------------------------

23/07/2021 PRIX DES FUSCHIAS
20:15 - Réunion 1 Course 3 - CABOURG
TROT ATTELE - 2750m - 40000.00€ - Corde à droite


COUP SUR DES EXPERTS

12

Couple place
00 - 00// 00 - 00
Tierce : 00-00-00-00
Quarte00-00-00-00-00
Quinte00-00-00-00-00-00

Resultat:  

-------------------------------------------------------------------------------------------------

22/07/2021 PRIX DE LA VENUS DE PARIS - GRAND PRIX DES FEMMES JOCKEYS
20:15 - Réunion 1 Course 7 - LONGCHAMP
PLAT - 1900m - 50000.00€ - Corde à droite

COUP SUR DES EXPERTS

01

Couple place
01 - 05// 12 - 03
Tierce : 01-05-12-03
Quarte05-12-01-04-03
Quinte05-04-01-12-03-02

Resultat:  3-5-12-4-2

-------------------------------------------------------------------------------------------------

           21/07/2021 PRIX IMPERATRICE EUGENIE

20:15 - Réunion 1 Course 3 - VICHY
PLAT - 2400m - 55000.00€ - Corde à droite


COUP SUR DES EXPERTS

05

Couple place
05 - 02// 13 - 16
Tierce : 05-02-13-16
Quarte05-02-16-13-14
Quinte: 02-05-13-16-08-14

Resultat:  16-2-13-14-5

-------------------------------------------------------------------------------------------------

20/07/2021 PRIX VICHY COMMUNAUTE
13:50 - Réunion 1 Course 1 - VICHY
PLAT - 3000m - 50000.00€ - Corde à droite


COUP SUR DES EXPERTS

08

Couple place
08 - 02// 01 - 07
Tierce : 08-02-01-07
Quarte08-02-07-01-13
Quinte08-02-07-13-01-06

Resultat:  8-2-7-13-6

-------------------------------------------------------------------------------------------------

19/07/2021 PRIX DE LA BAIE DE VILLEFRANCHE
19:00 - Réunion 1 Course 2 - CAGNES-SUR-MER
TROT ATTELE - 2925m - 40000.00€ - Corde à gauche


COUP SUR DES EXPERTS

11

Couple place
12 - 13// 07 - 11
Tierce : 12-13-07-11
Quarte12-07-13-11-06
Quinte12-07-11-13-06-05

Resultat:  12-7-11-6-5

-------------------------------------------------------------------------------------------------

18/07/2021 PRIX DE LA FORET DE CHANTILLY

15:15 - Réunion 1 Course 3 - CHANTILLY
PLAT - 2200m - 50000.00€ - Corde à droite


COUP SUR DES EXPERTS

01

Couple place
01 - 04// 14 - 03
Tierce : 01-04-14-03
Quarte04-01-14-03-05
Quinte04-14-03-05-01-12

Resultat:  4-14-3-5-12

-------------------------------------------------------------------------------------------------

17/07/2021 PRIX DE VILLIERS
15:15 - Réunion 1 Course 3 - ENGHIEN
TROT ATTELE - 2150m - 43000.00€


COUP SUR DES EXPERTS

07

Couple place
02 - 05// 01 - 07
Tierce : 02-05-01-07
Quarte02-05-07-01-06
Quinte02-05-07-06-01-04

Resultat:  2-5-7-6-4

-------------------------------------------------------------------------------------------------

         16/07/2021 GRAND NATIONAL DU TROT                                                  "PARIS-TURF"

20:15 - Réunion 1 Course 3 - LES SABLES D'OLONNE
TROT ATTELE - 2650m - 85000.00€

COUP SUR DES EXPERTS

08

Couple place
10 - 06// 05 - 08
Tierce : 10-06-05-08
Quarte10-06-05-08-02
Quinte10-06-05-02-08-01

Resultat: 10-6-5-8-1

-------------------------------------------------------------------------------------------------

15/07/2021 PRIX DE L'OPERA
20:15 - Réunion 1 Course 7 - ENGHIEN
TROT ATTELE - 2150m - 58000.00€


COUP SUR DES EXPERTS

15

Couple place
02 - 15// 08 - 05
Tierce : 02-15-08-05
Quarte02-08-05-15-04
Quinte02-08-05-04-15-03

Resultat:  2-8-5-15-3

-------------------------------------------------------------------------------------------------


14/07/2021 LONGINES HANDICAP DE LA FETE NATIONALE
16:50 - Réunion 1 Course 2 - LONGCHAMP
PLAT - 1600m - 50000.00€ - Corde à droite


COUP SUR DES EXPERTS

03

Couple place
02 - 13// 05 - 12
Tierce : 02-13-05-12
Quarte02-13-12-05-10
Quinte02-13-12-05-10-03

Resultat:  2-13-12-10-3

-------------------------------------------------------------------------------------------------

13/07/2021 PRIX LE ROI SOLEIL
13:50 - Réunion 1 Course 2 - DEAUVILLE
PLAT - 1300m - 55000.00€


COUP SUR DES EXPERTS

09

Couple place
09 - 07// 04 - 15
Tierce : 09-07-04-15
Quarte07-09-04-13-15
Quinte04-07-12-15-09-13

Resultat: 7-4-15-12-13

-------------------------------------------------------------------------------------------------